Sunday, May 6, 2012

Songs - Hava Nagila / Heiveinu Shalom / Bashana/ Hask / Dovid Melech /


Hava Nagilah

I'm only putting this up here because someone requested it.
These chords are for academic purposes only and should not be played by anyone.

Ever.


I.
E
Hava nagilah hava hava nagilah

Am           E  Dm   E
Hava nagilah venismecha


II.
E             Dm
Hava neranena hava neranena

Dm            E
Hava neranena venismecha


III
Am
U'ru u'ru achim

Am
U'ru achim belev sameach

Am
U'ru achim belev sameach

E
U'ru achim belev sameach

E
U'ru achim belev sameach

E      
U'ru achim u'ru achim

         Am
Belev sameach


Happy now?

-----------------------
from www.JewishGuitarChords.com


Israeli / Folk - Heveinu Shalom Aleichem

Capo II

Note the chord changes on the "shalom"'s

        Am (E7)  Am
Heveinu shalom aleichem

         A7     Dm
Heveinu shalom aleichem

         E7     Am
Heveinu shalom aleichem

         E7                       Am
Heveinu shalom shalom shalom aleichem

-----------------------
www.JewishGuitarChords.com



Israeli / Folk - Bashana Haba'ah

One of my personal favorites.
Submitted by Izzy Kramer - I filled in some lyrics.

I.

Am          F      G            C
Bashana haba'a, neishev al hamirpeset

     Dm       E       Am
Venispor tziporim nodedot. (Yes we do!)

    Am          F       G7        C
Yeladim, bekhoufsha, yesakhakhu tofeset

        Dm         E        A7
Bein ha'bayit, u'lebein hasadot.


II. Chorus

       F         G7
Od tir'eh, od tir'eh,

     C       F
Kama tov yihiye,

    Dm        E      Am   A7
Bashana, bashana haba'a

       F         G7
Od tir'eh, od tir'eh,

     C       F
Kama tov yihiye,

    Dm        E      Am
Bashana, bashana haba'a


Anavim adumim, yavshilu ad ha'erev veyugshu tzonenim lashulkhan.
Verukhot redumim, yis'u el em haderekh itonim yeshanim ve'anan.

Od tire, od tire, kama tov yihye, bashana, bashana haba'a (2x)

Bashana haba'a, nifros kapot yadayim, mul ha'or hanigar halavan.
Anafa levana, tifros ba'or knafayim vehashemesh tizrakh betokhan.

Od tire, od tire, kama tov yihye, bashana, bashana haba'a (2x)

Bashana haba'a, neishev al hamirpeset venispor tziporim nodedot. (Yes we do!)
Yeladim, bekhoufsha, yesakhakhu tofeset bein ha'bayit, u'lebein hasadot.

Od tire, od tire, kama tov yihye, bashana, bashana haba'a (2x)

-----------------------
www.JewishGuitarChords.com
YUTOPIA - www.JoshYuter.com


Israeli / Folk - Yevarechecha

Tehillim 128:5-6

Capo III

I.

Am             Dm        Am
Yevarechecha Hashem mitziyon

Am            Dm     Am  E7
Ur'ei b'tuv yerushalayim

Am             G         Am
Yevarechecha Hashem mitziyon

Am          E7       Am
Kol yemei yemei chayeha

II.
Am          A7    Dm  G              C
Ur'ei vanim levanecha shalom al yisrael

Am    A7    Dm        Am     G      C   A7
Ur'ei vanim levanecha shalom al yisrael

Am          A7    Dm  G              C
Ur'ei vanim levanecha shalom al yisrael

Am    A7    Dm        Am     E7     Am
Ur'ei vanim levanecha shalom al yisrael


-----------------------
www.JewishGuitarChords.com
YUTOPIA - www.JoshYuter.com\


Naiomi Shemer - Yerushalayim Shel Zahav

Naiomi Shemer beautifully fingerpicks this song.
Since chords were requested, here's my attempt.

Capo III

Verse:

Am                   Dm
Avir harim tzalul kayayin
Dm           A7
Ve'reiach oranim
A7                  Dm
Nissa be'ru'ah ha'arbayim
Dm     Am  E Am
Im kol pa'amonim

Am                    Dm
U've'tardemat ilan va'even
Dm             A7
Shvuyah ba'halomah
A7                   Dm
Ha'ir asher badad yoshevet
Dm     Am   E Am
U've'libbah homah

Chorus:

Am      Dm          C
Yerushalayim shel zahav
C         F              C
Ve'shel nehoshet ve'shel ohr
C        Am      Em
Ha'lo le'chol shirayich
  C E  Am
Ani kinnor.

Am      Dm          C
Yerushalayim shel zahav
C         F              C
Ve'shel nehoshet ve'shel ohr
C        Am      Em
Ha'lo le'chol shirayich
 Am E  Am
Ani kinnor.

Continue the chord pattern from above

Eichah yavshu borot ha'mayim
Kikkar ha'shuk reikah
Ve'ein poked et har ha'bayit
Ba'ir ha'atika

U'va'me'arot asher ba'selah
Meyallelot ruhot
Ve'ein yored el yam ha'melah
Be'derech yeriho

Chorus

Ach be'vo'i ha-yom la-shir lach
Ve'lach likshor ketarim
Katonti mi-ze'ir bana'ich
U'me'aharon ha-meshorerim

Ki shemech zorev et ha-sefatayim
Ke'neshikat saraf
Im eshkakhekh Yerushalayim
Asher kullah zahav

Chorus

Hazarnu el borot ha-mayim
La-shuk ve'la-kikkar
Shofar koreh be-har ha-bayit
Ba'ir ha-attikah

U-va-me'arot asher ba-selah
Alfey shemashot zorhot
Nashuv nered el yam ha-melah
Be-derekh yeriho

-----------------------
www.JewishGuitarChords.com
YUTOPIA - www.JoshYuter.com

Israeli / Folk - Dovid Melech

This is the classic camp song with the pre-macarena hand motions.
As always transpose as needed.

I. 2x
G                         C        G
Dovid melech yisrael chai chai v'kayam


II. 

G
Dovid melech yisrael
G    C    G   D
Chai Chai V'kayam

-----------------------
www.JewishGuitarChords.com
YUTOPIA - www.JoshYuter.com

Israeli / Folk - Ose Shalom

From Stefan Schermann:

I did my best to make this a both good sounding and playable piece, but I still think
there are some parts that are very difficult to play on classical guitar, especially in
the last part. For those who don't know this song, you'll have to play it a few times
so you can play it at a bit normal speed, then you'll hear how beautiful it is.



Ose Shalom


     Dm          Gm6           Am                     Dm        Gm           
E||-----5--------0----0--0--|--5--------------0----|------------------------|
B||--6-----8--6-------------|-------8----6---------|--3---------3-----------|
G||--7-----------0-------0--|--5-------------------|--2------2--3--2--0--3--|
D||--7-----------8----------|--7-------------------|--3---------------------|
A||-------------------------|----------------------|------------------------|
E||-------------------------|----------------------|------------------------|


  Dm                        Dm        A7                      Am6        
-----------1----------1--|--5-----------------5--|--5-------------------|
--3-----3-----3----3-----|--6---------8----------|--6---------7---------|
--2--2--------2----------|--7---------6----------|------------5----7----|
--3-----------3----------|-------7---------7-----|-------7--------------|
-------------------------|-----------------------|----------------------|
-------------------------|-----------------------|----------------------|


  Gm       C9                 F                        Gm        C7              
--6------------10----------|------------------------|------------8--------------|
--8--------11------13--11--|------------------------|--8----8--------11--10--8--|
--7--------9---------------|--10----9----7----------|--7----0----9--------------|
--5--------10--------------|--10--------------10----|--8---------10-------------|
---------------------------|--8---------------------|---------------------------|
---------------------------|------------------------|---------------------------|


  F5                     Gm6                       Db/A Em   Dm        
----------------------|--0----------------------|---------------------|
----------------------|-----6--8----------10----|--6----5----3--------|
--10------------------|--0----------------------|--6---------2--------|
--10--------8----7----|--8----------------------|--7----5----3--------|
--8-------------------|-----------8--7----------|---------------------|
----------------------|-------------------------|---------------------|


    Am6         Gm           Gm6                      Dm    Gm    Gm6        
|---5--8--6--5--3---------|--3--6--5--3--1---------|--1--5--3--1--0----0----|
|---7-----------3----3----|--5-----------1----1----|--3---------------------|
|*--5-----------3---------|--3--------5------------|--2-----3-----3---------|
|*--------------5---------|--------5-----3---------|-----------3--5----2----|
|-------------------------|------------------------|------------------------|
|-------------------------|------------------------|------------------------|


  A     F     Dm    (repeat)  A  A7 Dm    Dm         
--5-----------5-----------||--5--3--1--0------------|
--5--8--6--8--6-----------||--5--2--------3---------|
--6-----------7-------7--*||--6-----2-----2----2----|
--7-----7----------7-----*||--------------3---------|
-----------7--------------||------------------------|
--------------------------||------------------------|


    Dm                                 Am                         
|-------10--10------10--------------|------8--8--7--8------------|
|---10----------10--10--------------|--10-----------10-----------|
|*--10--------------10--------------|--9------------9------------|
|*--12--------------------------12--|--10---------------------7--|
|-----------------------12--12------|-------------------7--7-----|
|-----------------------------------|----------------------------|


  Dm                              E             Am  (repeat)        
------10--10------10----8--10--|--12--10--8--7--5---------||
--10----------10--10-----------|--9-------------5---------||
--10--------------10-----------|--9----------9--5--------*||
--12--------------12-----------|----------------7--------*||
----------12------------8------|--------------------------||
-------------------------------|--------------------------||

Miami Boys Choir - Hashiveinu

Anonymous submission


G                 C
Hashiveinu Hashem Eilecha

       D        G
Hashem Eilecha  V'Nashuva

G        C
Chadeish Yameinu

         D           G
Chadeish Yameinu K'Kedem


G                      Am
Chadeish, Chadeish, Chadeish Yameinu

D                      Em
Chadeish, Chadeish, Chadeish Yameinu

C            Am          G D G
Ay ya ya ya, hashiveinu K'Kedem

-----------------------
www.JewishGuitarChords.com
YUTOPIA - www.JoshYuter.com


Moshav Band - Eliyahu Hanavi

Submitted by Izzy Kramer


1. Intro: x2

Dm Gm C Dm 

2. Eliyahu x2

Dm C Dm Bb C Dm  

3. Bimhera x2

Dm Gm C Am
Dm Gm C Dm


-----------------------
www.JewishGuitarChords.com
YUTOPIA - www.JoshYuter.com




Moshav Band - Bereishit

Submitted by Izzy Kramer

intro

drums //// Em //// C //// Em //// C ////


part 1.


     Em //   C#m7-5 //  C ////    B7 ////
Bereishit Barah Elokim Et Hashmayim Et Hashamayim

Em // C#m7-5 //   x2
Ve'et Ha'aretz


part 2.


G //////      (C) //   Em ////
Veha-artez Haytah Tohu Vavohu Vechoshech Al Pnei Tehom..

G ////////     Em // C#m7-5 //
Ve-ruach Elokim Merachepet Al Pnei Hamayim


part 3.


G //    G+(/D) // C ////
Vayomer Elokim Y'hi Or Vay'hi Or

G //   G+(/D) //    C //
Vayar Elokim Et Ha-or Ki Tov

  B7 //
Vayar Et Ha-or Ki...

Em // C#m7-5 // C ////
Tov..

Em // C#m7-5 // C ////


C#m7-5 is Em with a C# note at end
played as follows: (022020)
G+ is 320033

-----------------------
www.JewishGuitarChords.com
YUTOPIA - www.JoshYuter.com






No comments:

Post a Comment