Sunday, January 31, 2010

Creedence Clearwater Revival - Bad Moon Rising and Proud Mary


|--------------|------------|-------------------|
|--------------|------------|-------------------|
|--------------|------------|-------------------|
|--------------|------------|-------------------|
|--------------|------------|-------------------|
|--------------|------------|-------------------|
-fusion all a--round goin thru them ag -

G C G C
|-------|---------------------|--------|--------------|
|-------|---------------------|--------|--------------|
|-------|---------------------|--------|--------------|
|-------|---------------------|--------|--------------|
|-------|---------------------|--------|--------------|
|-------|---------------------|--------|--------------|
-ges- tryin ta find tha sun- and i wond-er

D Em G
|----------------|--------------------|--------|-----||
|----------------|--------------------|--------|----o||
|----------------|--------------------|--------|-----||
|----------------|--------------------|--------|-----||
|----------------|--------------------|--------|----o||
|----------------|--------------------|--------|-----||
still i wonder who'll stop the rain---

(break thingy)
C G D Am C Em D G G
|------|-----|---------|------|------|-----|
|------|-----|---------|------|------|-----|
|------|-----|---------|------|------|-----|
|------|-----|---------|------|------|-----|
|------|-----|---------|------|------|-----|
|------|-----|---------|------|------|-----|


here's some fills!!!!!!!

fill: 1,
G
e|------------------|------------------------|-------------|
B|------3-------3---|------------------------|-------------|
G|-2h4------2h4---2-|-0----------------------|-------------|
D|------------------|---------------0------0-|-------------|
A|------------------|-----------0h2----0h2---|-------------|
E|------------------|------------------------|-3-----------|

fill:2,4,5
G
e|-------7----5----3--|
B|--------------------|
G|-4-/-7----5----4----|
D|--------------------|
A|--------------------|
E|--------------------|

fill:3 fill:6
G
e|------------|-----------|------7---------3--|
B|------------|-----------|-------------------|
G|-0----------|-----------|--/-7-----7-\-4----|
D|---2p0------|-----------|-------------------|
A|---------2--|-----------|-------------------|
E|------------|-3---------|-------------------|


/ = legato slide, slide up the neck** (the second note is not plucked)**
\ = " ",slide back down towards the nut or headstock**
| h hammer-on**
| p pull-off**

| b bend note
| ~ vibrato
| H harmonic
| PH pinch harmonic
| x Muted string



Who'll stop the rain
This tab written and submitted by Aleksi Hahko
Standard tuning

Very simple song.

Chords

EADGBE
G 320003
C 032010
Bm X24432
D X00232
Am 002210
Em 022000

Intro (G and Em played in the background)

E|-------3-------3-----------3-------3----------3-------3----------|
B|-----0-------0-----------0-------0----------0-------0------------|
G|---0-------0-----------0-------0----------0-------0--------------|
D|------------------------------------0----------------------------|
A|-----------------------------------------------------------------|
E|-3-------3--------2-0--------0----------3-------3----------------|

If you don't have an another guitar backing you up in the intro
(I don't) just play the single notes in the E-string and G.

Here it goes

G C G
Long as I remember the rain been comin' down
G C G
Clouds of mystery pourin' confusion on the ground

C G
Good men through the ages
C G
Tryin' to find the sun
C D
And I wonder still I wonder
Em G
Who'll stop the rain

G C G
I went down Virginia seeking shelter from the storm
G Bm C G
Caught up in the fable I watched the tower grow

C G
Five-year plans and new deals
C G
Wrapped in golden chains
C D
And I wonder, still I wonder
Em G
Who'll stop the rain

Break:

G-D Am-C-Em D-G


G C G
Heard the singers playin', how we cheered for more
G Bm C G
The crowd had rushed together, just tryin to keep warm

C G
Still the rain kept pourin'
C G
Fallin on my ears
C D
And I wonder, still I wonder
Em
Who'll stop the rain...

Repeat intro pattern until fadeout
http://www.youtube.com/watch?v=sVD6lEyQs5c

No comments:

Post a Comment